  0
SECTION
  2
HEADER
  9
$ANGBASE
  50
0.0
  9
$ANGDIR
  70
1
  9
$MEASUREMENT
  70
0
  0
ENDSEC
  0
SECTION
  2
TABLES
  0
TABLE
  2
LTYPE
  70
4
  0
LTYPE
  5
40F
  2
CONTINUOUS
  70
0
  3
Solid line
  72
65
  73
0
  40
0.0
  0
LTYPE
  5
410
  2
DASHDOT
 70
0
  3
Dash Dot ____ _ ____ _
 72
65
 73
4
 40
2.0
 49
1.25
 49
-0.25
 49
0.25
 49
-0.25
  0
LTYPE
  5
411
  2
DASHED
 70
0
  3
Dashed __ __ __ __ __
 72
65
 73
2
 40
0.75
 49
0.5
 49
-0.25
  0
LTYPE
  5
43B
  2
DOTTED
 70
0
  3
Dotted .  .  .  .
 72
65
 73
2
 40
0.2
 49
0.0
 49
-0.2
  0
ENDTAB
  0
TABLE
  2
STYLE
  70
4
  0
STYLE
  2
KICAD
  70
0
  40
0
  41
1
  42
1
  50
0
  71
0
  3
isocp.shx
  0
STYLE
  2
KICADB
  70
0
  40
0
  41
1
  42
1
  50
0
  71
0
  3
isocp.shx
  0
STYLE
  2
KICADI
  70
0
  40
0
  41
1
  42
1
  50
15
  71
0
  3
isocp.shx
  0
STYLE
  2
KICADBI
  70
0
  40
0
  41
1
  42
1
  50
15
  71
0
  3
isocp.shx
  0
ENDTAB
  0
TABLE
  2
LAYER
  70
1
  0
LAYER
  2
BLACK
  70
0
  62
7
  6
CONTINUOUS
  0
ENDTAB
  0
ENDSEC
  0
SECTION
  2
ENTITIES
0
LINE
8
BLACK
6
CONTINUOUS
10
3.7303149606299213
20
-3.9826771653543305
11
3.7302174015748029
21
-3.9826771653543305
0
LINE
8
BLACK
6
CONTINUOUS
10
3.7302174015748029
20
-3.9826771653543305
11
3.7302864173228345
21
-4.0060822440944879
0
LINE
8
BLACK
6
CONTINUOUS
10
3.7302864173228345
20
-4.0060822440944879
11
3.8879497244094487
21
-4.0059157086614174
0
LINE
8
BLACK
6
CONTINUOUS
10
3.8879497244094487
20
-4.0059157086614174
11
3.8878812204724409
21
-3.9826771653543305
0
LINE
8
BLACK
6
CONTINUOUS
10
3.8878812204724409
20
-3.9826771653543305
11
3.8877952755905509
21
-3.9826771653543305
0
LINE
8
BLACK
6
CONTINUOUS
10
3.8877952755905509
20
-3.9826771653543305
11
3.8877952755905509
21
-3.9244094488188974
0
LINE
8
BLACK
6
CONTINUOUS
10
3.8877952755905509
20
-3.9244094488188974
11
3.9074803149606296
21
-3.9244094488188974
0
LINE
8
BLACK
6
CONTINUOUS
10
3.9074803149606296
20
-3.9244094488188974
11
3.9074803149606296
21
-3.9826771653543305
0
LINE
8
BLACK
6
CONTINUOUS
10
3.9074803149606296
20
-3.9826771653543305
11
3.9073827559055117
21
-3.9826771653543305
0
LINE
8
BLACK
6
CONTINUOUS
10
3.9073827559055117
20
-3.9826771653543305
11
3.9074803149606296
21
-4.015748031496063
0
LINE
8
BLACK
6
CONTINUOUS
10
3.9074803149606296
20
-4.015748031496063
11
3.9072911811023623
21
-4.0176682283464569
0
LINE
8
BLACK
6
CONTINUOUS
10
3.9072911811023623
20
-4.0176682283464569
11
3.9058215354330708
21
-4.0212162598425198
0
LINE
8
BLACK
6
CONTINUOUS
10
3.9058215354330708
20
-4.0212162598425198
11
3.9031060236220472
21
-4.023931771653543
0
LINE
8
BLACK
6
CONTINUOUS
10
3.9031060236220472
20
-4.023931771653543
11
3.8995579921259842
21
-4.0254014173228345
0
LINE
8
BLACK
6
CONTINUOUS
10
3.8995579921259842
20
-4.0254014173228345
11
3.7204724409448819
21
-4.0255905511811019
0
LINE
8
BLACK
6
CONTINUOUS
10
3.7204724409448819
20
-4.0255905511811019
11
3.718552244094488
21
-4.0254014173228345
0
LINE
8
BLACK
6
CONTINUOUS
10
3.718552244094488
20
-4.0254014173228345
11
3.7150042125984251
21
-4.023931771653543
0
LINE
8
BLACK
6
CONTINUOUS
10
3.7150042125984251
20
-4.023931771653543
11
3.7122887007874015
21
-4.0212162598425198
0
LINE
8
BLACK
6
CONTINUOUS
10
3.7122887007874015
20
-4.0212162598425198
11
3.7108190551181099
21
-4.0176682283464569
0
LINE
8
BLACK
6
CONTINUOUS
10
3.7108190551181099
20
-4.0176682283464569
11
3.7107158661417321
21
-3.9826771653543305
0
LINE
8
BLACK
6
CONTINUOUS
10
3.7107158661417321
20
-3.9826771653543305
11
3.7106299212598426
21
-3.9826771653543305
0
LINE
8
BLACK
6
CONTINUOUS
10
3.7106299212598426
20
-3.9826771653543305
11
3.7106299212598426
21
-3.9244094488188974
0
LINE
8
BLACK
6
CONTINUOUS
10
3.7106299212598426
20
-3.9244094488188974
11
3.7303149606299213
21
-3.9244094488188974
0
LINE
8
BLACK
6
CONTINUOUS
10
3.7303149606299213
20
-3.9244094488188974
11
3.7303149606299213
21
-3.9826771653543305
0
LINE
8
BLACK
6
CONTINUOUS
10
3.5881453543307087
20
-3.9485091732283464
11
3.5959160236220473
21
-3.9560827559055118
0
LINE
8
BLACK
6
CONTINUOUS
10
3.5959160236220473
20
-3.9560827559055118
11
3.6712598425196847
21
-3.9559361417322836
0
LINE
8
BLACK
6
CONTINUOUS
10
3.6712598425196847
20
-3.9559361417322836
11
3.6712598425196847
21
-3.9559055118110233
0
LINE
8
BLACK
6
CONTINUOUS
10
3.6712598425196847
20
-3.9559055118110233
11
3.7027559055118111
21
-3.9559055118110233
0
LINE
8
BLACK
6
CONTINUOUS
10
3.7027559055118111
20
-3.9559055118110233
11
3.7027559055118111
21
-3.9755905511811021
0
LINE
8
BLACK
6
CONTINUOUS
10
3.7027559055118111
20
-3.9755905511811021
11
3.6712598425196847
21
-3.9755905511811021
0
LINE
8
BLACK
6
CONTINUOUS
10
3.6712598425196847
20
-3.9755905511811021
11
3.6712598425196847
21
-3.9754357874015747
0
LINE
8
BLACK
6
CONTINUOUS
10
3.6712598425196847
20
-3.9754357874015747
11
3.5917322834645669
21
-3.9755905511811021
0
LINE
8
BLACK
6
CONTINUOUS
10
3.5917322834645669
20
-3.9755905511811021
11
3.5898120866141729
21
-3.9754014173228347
0
LINE
8
BLACK
6
CONTINUOUS
10
3.5898120866141729
20
-3.9754014173228347
11
3.58626405511811
21
-3.9739317716535432
0
LINE
8
BLACK
6
CONTINUOUS
10
3.58626405511811
20
-3.9739317716535432
11
3.5862625196850395
21
-3.9739302362204723
0
LINE
8
BLACK
6
CONTINUOUS
10
3.5862625196850395
20
-3.9739302362204723
11
3.575717440944882
21
-3.9636526377952754
0
LINE
8
BLACK
6
CONTINUOUS
10
3.575717440944882
20
-3.9636526377952754
11
3.5744934251968501
21
-3.9621611023622045
0
LINE
8
BLACK
6
CONTINUOUS
10
3.5744934251968501
20
-3.9621611023622045
11
3.573023779527559
21
-3.9586130708661416
0
LINE
8
BLACK
6
CONTINUOUS
10
3.573023779527559
20
-3.9586130708661416
11
3.573023779527559
21
-3.9547727559055117
0
LINE
8
BLACK
6
CONTINUOUS
10
3.573023779527559
20
-3.9547727559055117
11
3.5744934251968501
21
-3.9512247244094487
0
LINE
8
BLACK
6
CONTINUOUS
10
3.5744934251968501
20
-3.9512247244094487
11
3.5772089763779529
21
-3.9485091732283464
0
LINE
8
BLACK
6
CONTINUOUS
10
3.5772089763779529
20
-3.9485091732283464
11
3.5807570078740159
21
-3.9470395275590549
0
LINE
8
BLACK
6
CONTINUOUS
10
3.5807570078740159
20
-3.9470395275590549
11
3.5845973228346457
21
-3.9470395275590549
0
LINE
8
BLACK
6
CONTINUOUS
10
3.5845973228346457
20
-3.9470395275590549
11
3.5881453543307087
21
-3.9485091732283464
0
LINE
8
BLACK
6
CONTINUOUS
10
3.7696850393700787
20
-3.9560648425196852
11
3.8484251968503935
21
-3.9559320472440942
0
LINE
8
BLACK
6
CONTINUOUS
10
3.8484251968503935
20
-3.9559320472440942
11
3.8484251968503935
21
-3.9559055118110233
0
LINE
8
BLACK
6
CONTINUOUS
10
3.8484251968503935
20
-3.9559055118110233
11
3.8799212598425195
21
-3.9559055118110233
0
LINE
8
BLACK
6
CONTINUOUS
10
3.8799212598425195
20
-3.9559055118110233
11
3.8799212598425195
21
-3.9755905511811021
0
LINE
8
BLACK
6
CONTINUOUS
10
3.8799212598425195
20
-3.9755905511811021
11
3.8484251968503935
21
-3.9755905511811021
0
LINE
8
BLACK
6
CONTINUOUS
10
3.8484251968503935
20
-3.9755905511811021
11
3.8484251968503935
21
-3.9754311811023619
0
LINE
8
BLACK
6
CONTINUOUS
10
3.8484251968503935
20
-3.9754311811023619
11
3.7696850393700787
21
-3.9755639763779524
0
LINE
8
BLACK
6
CONTINUOUS
10
3.7696850393700787
20
-3.9755639763779524
11
3.7696850393700787
21
-3.9755905511811021
0
LINE
8
BLACK
6
CONTINUOUS
10
3.7696850393700787
20
-3.9755905511811021
11
3.7539370078740157
21
-3.9755905511811021
0
LINE
8
BLACK
6
CONTINUOUS
10
3.7539370078740157
20
-3.9755905511811021
11
3.7381889763779528
21
-3.9755905511811021
0
LINE
8
BLACK
6
CONTINUOUS
10
3.7381889763779528
20
-3.9755905511811021
11
3.7381889763779528
21
-3.9559055118110233
0
LINE
8
BLACK
6
CONTINUOUS
10
3.7381889763779528
20
-3.9559055118110233
11
3.7696850393700787
21
-3.9559055118110233
0
LINE
8
BLACK
6
CONTINUOUS
10
3.7696850393700787
20
-3.9559055118110233
11
3.7696850393700787
21
-3.9560648425196852
0
LINE
8
BLACK
6
CONTINUOUS
10
3.9468503937007875
20
-3.9755905511811021
11
3.9153543307086611
21
-3.9755905511811021
0
LINE
8
BLACK
6
CONTINUOUS
10
3.9153543307086611
20
-3.9755905511811021
11
3.9153543307086611
21
-3.9559055118110233
0
LINE
8
BLACK
6
CONTINUOUS
10
3.9153543307086611
20
-3.9559055118110233
11
3.9468503937007875
21
-3.9559055118110233
0
LINE
8
BLACK
6
CONTINUOUS
10
3.9468503937007875
20
-3.9559055118110233
11
3.9468503937007875
21
-3.9755905511811021
0
LINE
8
BLACK
6
CONTINUOUS
10
3.5859580708661416
20
-3.912412559055118
11
3.5982053937007872
21
-3.9245183858267714
0
LINE
8
BLACK
6
CONTINUOUS
10
3.5982053937007872
20
-3.9245183858267714
11
3.6712598425196847
21
-3.9244287401574804
0
LINE
8
BLACK
6
CONTINUOUS
10
3.6712598425196847
20
-3.9244287401574804
11
3.6712598425196847
21
-3.9244094488188974
0
LINE
8
BLACK
6
CONTINUOUS
10
3.6712598425196847
20
-3.9244094488188974
11
3.7027559055118111
21
-3.9244094488188974
0
LINE
8
BLACK
6
CONTINUOUS
10
3.7027559055118111
20
-3.9244094488188974
11
3.7027559055118111
21
-3.9362204724409446
0
LINE
8
BLACK
6
CONTINUOUS
10
3.7027559055118111
20
-3.9362204724409446
11
3.6712598425196847
21
-3.9362204724409446
0
LINE
8
BLACK
6
CONTINUOUS
10
3.6712598425196847
20
-3.9362204724409446
11
3.6712598425196847
21
-3.9361277165354331
0
LINE
8
BLACK
6
CONTINUOUS
10
3.6712598425196847
20
-3.9361277165354331
11
3.5956692913385826
21
-3.9362204724409446
0
LINE
8
BLACK
6
CONTINUOUS
10
3.5956692913385826
20
-3.9362204724409446
11
3.5945171653543304
21
-3.9361070078740155
0
LINE
8
BLACK
6
CONTINUOUS
10
3.5945171653543304
20
-3.9361070078740155
11
3.5932701181102362
21
-3.9355904330708662
0
LINE
8
BLACK
6
CONTINUOUS
10
3.5932701181102362
20
-3.9355904330708662
11
3.5923883464566928
21
-3.9352252362204725
0
LINE
8
BLACK
6
CONTINUOUS
10
3.5923883464566928
20
-3.9352252362204725
11
3.5785013385826772
21
-3.9214986614173228
0
LINE
8
BLACK
6
CONTINUOUS
10
3.5785013385826772
20
-3.9214986614173228
11
3.5777668897637795
21
-3.92060374015748
0
LINE
8
BLACK
6
CONTINUOUS
10
3.5777668897637795
20
-3.92060374015748
11
3.5768851181102361
21
-3.9184749212598424
0
LINE
8
BLACK
6
CONTINUOUS
10
3.5768851181102361
20
-3.9184749212598424
11
3.5768851181102361
21
-3.916170748031496
0
LINE
8
BLACK
6
CONTINUOUS
10
3.5768851181102361
20
-3.916170748031496
11
3.5777668897637795
21
-3.9140419291338584
0
LINE
8
BLACK
6
CONTINUOUS
10
3.5777668897637795
20
-3.9140419291338584
11
3.5793962598425195
21
-3.912412559055118
0
LINE
8
BLACK
6
CONTINUOUS
10
3.5793962598425195
20
-3.912412559055118
11
3.5815250787401576
21
-3.9115307874015746
0
LINE
8
BLACK
6
CONTINUOUS
10
3.5815250787401576
20
-3.9115307874015746
11
3.583829251968504
21
-3.9115307874015746
0
LINE
8
BLACK
6
CONTINUOUS
10
3.583829251968504
20
-3.9115307874015746
11
3.5859580708661416
21
-3.912412559055118
0
LINE
8
BLACK
6
CONTINUOUS
10
3.7696850393700787
20
-3.9245056692913387
11
3.8484251968503935
21
-3.9244254724409449
0
LINE
8
BLACK
6
CONTINUOUS
10
3.8484251968503935
20
-3.9244254724409449
11
3.8484251968503935
21
-3.9244094488188974
0
LINE
8
BLACK
6
CONTINUOUS
10
3.8484251968503935
20
-3.9244094488188974
11
3.8799212598425195
21
-3.9244094488188974
0
LINE
8
BLACK
6
CONTINUOUS
10
3.8799212598425195
20
-3.9244094488188974
11
3.8799212598425195
21
-3.9362204724409446
0
LINE
8
BLACK
6
CONTINUOUS
10
3.8799212598425195
20
-3.9362204724409446
11
3.8484251968503935
21
-3.9362204724409446
0
LINE
8
BLACK
6
CONTINUOUS
10
3.8484251968503935
20
-3.9362204724409446
11
3.8484251968503935
21
-3.936124212598425
0
LINE
8
BLACK
6
CONTINUOUS
10
3.8484251968503935
20
-3.936124212598425
11
3.7696850393700787
21
-3.9362044094488189
0
LINE
8
BLACK
6
CONTINUOUS
10
3.7696850393700787
20
-3.9362044094488189
11
3.7696850393700787
21
-3.9362204724409446
0
LINE
8
BLACK
6
CONTINUOUS
10
3.7696850393700787
20
-3.9362204724409446
11
3.7539370078740157
21
-3.9362204724409446
0
LINE
8
BLACK
6
CONTINUOUS
10
3.7539370078740157
20
-3.9362204724409446
11
3.7381889763779528
21
-3.9362204724409446
0
LINE
8
BLACK
6
CONTINUOUS
10
3.7381889763779528
20
-3.9362204724409446
11
3.7381889763779528
21
-3.9244094488188974
0
LINE
8
BLACK
6
CONTINUOUS
10
3.7381889763779528
20
-3.9244094488188974
11
3.7696850393700787
21
-3.9244094488188974
0
LINE
8
BLACK
6
CONTINUOUS
10
3.7696850393700787
20
-3.9244094488188974
11
3.7696850393700787
21
-3.9245056692913387
0
LINE
8
BLACK
6
CONTINUOUS
10
3.9468503937007875
20
-3.9362204724409446
11
3.9153543307086611
21
-3.9362204724409446
0
LINE
8
BLACK
6
CONTINUOUS
10
3.9153543307086611
20
-3.9362204724409446
11
3.9153543307086611
21
-3.9244094488188974
0
LINE
8
BLACK
6
CONTINUOUS
10
3.9153543307086611
20
-3.9244094488188974
11
3.9468503937007875
21
-3.9244094488188974
0
LINE
8
BLACK
6
CONTINUOUS
10
3.9468503937007875
20
-3.9244094488188974
11
3.9468503937007875
21
-3.9362204724409446
0
LINE
8
BLACK
6
CONTINUOUS
10
3.8787208267716533
20
-3.8347212992125983
11
3.8801400393700787
21
-3.8353091732283464
0
LINE
8
BLACK
6
CONTINUOUS
10
3.8801400393700787
20
-3.8353091732283464
11
3.9004216929133859
21
-3.8554838188976377
0
LINE
8
BLACK
6
CONTINUOUS
10
3.9004216929133859
20
-3.8554838188976377
11
3.9009112992125985
21
-3.8560804330708662
0
LINE
8
BLACK
6
CONTINUOUS
10
3.9009112992125985
20
-3.8560804330708662
11
3.9014991732283462
21
-3.8574996456692912
0
LINE
8
BLACK
6
CONTINUOUS
10
3.9014991732283462
20
-3.8574996456692912
11
3.901537716535433
21
-3.8779527559055116
0
LINE
8
BLACK
6
CONTINUOUS
10
3.901537716535433
20
-3.8779527559055116
11
3.9074803149606296
21
-3.8779527559055116
0
LINE
8
BLACK
6
CONTINUOUS
10
3.9074803149606296
20
-3.8779527559055116
11
3.9074803149606296
21
-3.917322834645669
0
LINE
8
BLACK
6
CONTINUOUS
10
3.9074803149606296
20
-3.917322834645669
11
3.8877952755905509
21
-3.917322834645669
0
LINE
8
BLACK
6
CONTINUOUS
10
3.8877952755905509
20
-3.917322834645669
11
3.8877952755905509
21
-3.9045874803149605
0
LINE
8
BLACK
6
CONTINUOUS
10
3.8877952755905509
20
-3.9045874803149605
11
3.8799212598425195
21
-3.9046331102362202
0
LINE
8
BLACK
6
CONTINUOUS
10
3.8799212598425195
20
-3.9046331102362202
11
3.8799212598425195
21
-3.9047244094488187
0
LINE
8
BLACK
6
CONTINUOUS
10
3.8799212598425195
20
-3.9047244094488187
11
3.8641732283464565
21
-3.9047244094488187
0
LINE
8
BLACK
6
CONTINUOUS
10
3.8641732283464565
20
-3.9047244094488187
11
3.8484251968503935
21
-3.9047244094488187
0
LINE
8
BLACK
6
CONTINUOUS
10
3.8484251968503935
20
-3.9047244094488187
11
3.8484251968503935
21
-3.88503937007874
0
LINE
8
BLACK
6
CONTINUOUS
10
3.8484251968503935
20
-3.88503937007874
11
3.8799212598425195
21
-3.88503937007874
0
LINE
8
BLACK
6
CONTINUOUS
10
3.8799212598425195
20
-3.88503937007874
11
3.8799212598425195
21
-3.8851260629921258
0
LINE
8
BLACK
6
CONTINUOUS
10
3.8799212598425195
20
-3.8851260629921258
11
3.8877952755905509
21
-3.8850804330708661
0
LINE
8
BLACK
6
CONTINUOUS
10
3.8877952755905509
20
-3.8850804330708661
11
3.8877952755905509
21
-3.8779527559055116
0
LINE
8
BLACK
6
CONTINUOUS
10
3.8877952755905509
20
-3.8779527559055116
11
3.893737874015748
21
-3.8779527559055116
0
LINE
8
BLACK
6
CONTINUOUS
10
3.893737874015748
20
-3.8779527559055116
11
3.8937036614173226
21
-3.8598035826771651
0
LINE
8
BLACK
6
CONTINUOUS
10
3.8937036614173226
20
-3.8598035826771651
11
3.8762533858267716
21
-3.8424453937007872
0
LINE
8
BLACK
6
CONTINUOUS
10
3.8762533858267716
20
-3.8424453937007872
11
3.7416912992125981
21
-3.8425188188976378
0
LINE
8
BLACK
6
CONTINUOUS
10
3.7416912992125981
20
-3.8425188188976378
11
3.7243391732283464
21
-3.8599629921259844
0
LINE
8
BLACK
6
CONTINUOUS
10
3.7243391732283464
20
-3.8599629921259844
11
3.7243785039370079
21
-3.8779527559055116
0
LINE
8
BLACK
6
CONTINUOUS
10
3.7243785039370079
20
-3.8779527559055116
11
3.7303149606299213
21
-3.8779527559055116
0
LINE
8
BLACK
6
CONTINUOUS
10
3.7303149606299213
20
-3.8779527559055116
11
3.7303149606299213
21
-3.917322834645669
0
LINE
8
BLACK
6
CONTINUOUS
10
3.7303149606299213
20
-3.917322834645669
11
3.7106299212598426
21
-3.917322834645669
0
LINE
8
BLACK
6
CONTINUOUS
10
3.7106299212598426
20
-3.917322834645669
11
3.7106299212598426
21
-3.9045874803149605
0
LINE
8
BLACK
6
CONTINUOUS
10
3.7106299212598426
20
-3.9045874803149605
11
3.7027559055118111
21
-3.9046331102362202
0
LINE
8
BLACK
6
CONTINUOUS
10
3.7027559055118111
20
-3.9046331102362202
11
3.7027559055118111
21
-3.9047244094488187
0
LINE
8
BLACK
6
CONTINUOUS
10
3.7027559055118111
20
-3.9047244094488187
11
3.6870078740157481
21
-3.9047244094488187
0
LINE
8
BLACK
6
CONTINUOUS
10
3.6870078740157481
20
-3.9047244094488187
11
3.6712598425196847
21
-3.9047244094488187
0
LINE
8
BLACK
6
CONTINUOUS
10
3.6712598425196847
20
-3.9047244094488187
11
3.6712598425196847
21
-3.88503937007874
0
LINE
8
BLACK
6
CONTINUOUS
10
3.6712598425196847
20
-3.88503937007874
11
3.7027559055118111
21
-3.88503937007874
0
LINE
8
BLACK
6
CONTINUOUS
10
3.7027559055118111
20
-3.88503937007874
11
3.7027559055118111
21
-3.8851260629921258
0
LINE
8
BLACK
6
CONTINUOUS
10
3.7027559055118111
20
-3.8851260629921258
11
3.7106299212598426
21
-3.8850804330708661
0
LINE
8
BLACK
6
CONTINUOUS
10
3.7106299212598426
20
-3.8850804330708661
11
3.7106299212598426
21
-3.8779527559055116
0
LINE
8
BLACK
6
CONTINUOUS
10
3.7106299212598426
20
-3.8779527559055116
11
3.7165725196850392
21
-3.8779527559055116
0
LINE
8
BLACK
6
CONTINUOUS
10
3.7165725196850392
20
-3.8779527559055116
11
3.7165354330708662
21
-3.8582677165354329
0
LINE
8
BLACK
6
CONTINUOUS
10
3.7165354330708662
20
-3.8582677165354329
11
3.7166110629921261
21
-3.8574996456692912
0
LINE
8
BLACK
6
CONTINUOUS
10
3.7166110629921261
20
-3.8574996456692912
11
3.7171989370078737
21
-3.8560804330708662
0
LINE
8
BLACK
6
CONTINUOUS
10
3.7171989370078737
20
-3.8560804330708662
11
3.7373735826771655
21
-3.835798779527559
0
LINE
8
BLACK
6
CONTINUOUS
10
3.7373735826771655
20
-3.835798779527559
11
3.7379701968503936
21
-3.8353091732283464
0
LINE
8
BLACK
6
CONTINUOUS
10
3.7379701968503936
20
-3.8353091732283464
11
3.7393894094488189
21
-3.8347212992125983
0
LINE
8
BLACK
6
CONTINUOUS
10
3.7393894094488189
20
-3.8347212992125983
11
3.8779527559055116
21
-3.8346456692913384
0
LINE
8
BLACK
6
CONTINUOUS
10
3.8779527559055116
20
-3.8346456692913384
11
3.8787208267716533
21
-3.8347212992125983
0
LINE
8
BLACK
6
CONTINUOUS
10
3.7696850393700787
20
-3.9047244094488187
11
3.7381889763779528
21
-3.9047244094488187
0
LINE
8
BLACK
6
CONTINUOUS
10
3.7381889763779528
20
-3.9047244094488187
11
3.7381889763779528
21
-3.88503937007874
0
LINE
8
BLACK
6
CONTINUOUS
10
3.7381889763779528
20
-3.88503937007874
11
3.7696850393700787
21
-3.88503937007874
0
LINE
8
BLACK
6
CONTINUOUS
10
3.7696850393700787
20
-3.88503937007874
11
3.7696850393700787
21
-3.9047244094488187
0
LINE
8
BLACK
6
CONTINUOUS
10
3.9468503937007875
20
-3.9047244094488187
11
3.9153543307086611
21
-3.9047244094488187
0
LINE
8
BLACK
6
CONTINUOUS
10
3.9153543307086611
20
-3.9047244094488187
11
3.9153543307086611
21
-3.88503937007874
0
LINE
8
BLACK
6
CONTINUOUS
10
3.9153543307086611
20
-3.88503937007874
11
3.9468503937007875
21
-3.88503937007874
0
LINE
8
BLACK
6
CONTINUOUS
10
3.9468503937007875
20
-3.88503937007874
11
3.9468503937007875
21
-3.9047244094488187
  0
ENDSEC
  0
EOF
