  0
SECTION
  2
HEADER
  9
$ACADVER
  1
AC1006
  9
$EXTMIN
 10
0.0
 20
0.0
  9
$EXTMAX
 10
14.58
 20
9.929993
  9
$LTSCALE
 40
0.000394
  9
$PDMODE
 70
35
  9
$PDSIZE
 40
0.000315
  0
ENDSEC
  0
SECTION
  2
TABLES
  0
TABLE
  2
LTYPE
 70
  9
  0
LTYPE
  2
CONTINUOUS
 70
 64
  3
Solid line
 72
 65
 73
  0
 40
0.000000
  0
LTYPE
  2
DASHED
 70
 64
  3
__ __ __ __ __ __ __ __ __ __ __ __ __ __ __
 72
 65
 73
  2
 40
0.000003
 49
0.000002
 49
-0.000001
  0
LTYPE
  2
HIDDEN
 70
 64
  3
 _ _ _ _ _ _ _ _ _ _ _ _ _ _ _ _ _ _ _ _ _ _
 72
 65
 73
  2
 40
0.000001
 49
0.000001
 49
-0.000000
  0
LTYPE
  2
CENTER
 70
 64
  3
____ _ ____ _ ____ _ ____ _ ____ _ ____ _ ____
 72
 65
 73
  4
 40
0.000008
 49
0.000005
 49
-0.000001
 49
0.000001
 49
-0.000001
  0
LTYPE
  2
PHANTOM
 70
 64
  3
_____ _ _ _____ _ _ _____ _ _ _____ _ _ ____
 72
 65
 73
  6
 40
0.000010
 49
0.000005
 49
-0.000001
 49
0.000001
 49
-0.000001
 49
0.000001
 49
-0.000001
  0
LTYPE
  2
DOT
 70
 64
  3
...............................................
 72
 65
 73
  2
 40
0.000001
 49
0.000000
 49
-0.000001
  0
LTYPE
  2
DASHDOT
 70
 64
  3
__ . __ . __ . __ . __ . __ . __ . __ . __ . __
 72
 65
 73
  4
 40
0.000004
 49
0.000002
 49
-0.000001
 49
0.000000
 49
-0.000001
  0
LTYPE
  2
BORDER
 70
 64
  3
__ __ . __ __ . __ __ . __ __ . __ __ . __ __
 72
 65
 73
  6
 40
0.000007
 49
0.000002
 49
-0.000001
 49
0.000002
 49
-0.000001
 49
0.000000
 49
-0.000001
  0
LTYPE
  2
DIVIDE
 70
 64
  3
__ . . __ . . __ . . __ . . __ . . __ . . __
 72
 65
 73
  6
 40
0.000005
 49
0.000002
 49
-0.000001
 49
0.000000
 49
-0.000001
 49
0.000000
 49
-0.000001
  0
LTYPE
  2
DOTDOT
 70
 64
  3
 . .  . .  . .  . .  . .  . .
 72
 65
 73
  5
 40
0.000002
 49
-0.000001
 49
0.000000
 49
-0.000001
 49
0.000000
 49
-0.000001
  0
ENDTAB
  0
TABLE
  2
STYLE
 70
  0
  0
ENDTAB
  0
TABLE
  2
LAYER
 70
  4
  0
LAYER
  2
FOREGROUND
 70
 64
 62
  7
  6
CONTINUOUS
  0
LAYER
  2
BACKGROUND
 70
 65
 62
 -7
  6
CONTINUOUS
  0
LAYER
  2
PLAN_1
 70
 64
 62
  7
  6
CONTINUOUS
  0
ENDTAB
  0
ENDSEC
  0
SECTION
  2
ENTITIES
  0
LINE
  8
PLAN_1
 62
7
 10
94.103577
 20
-98.626396
 30
0.2
 11
93.649986
 21
-98.626396
 31
0.2
  0
LINE
  8
PLAN_1
 62
7
 10
93.649986
 20
-98.626396
 30
0.2
 11
93.196396
 21
-98.626396
 31
0.2
  0
LINE
  8
PLAN_1
 62
7
 10
93.196396
 20
-98.626396
 30
0.2
 11
93.196396
 21
-99.233574
 31
0.2
  0
LINE
  8
PLAN_1
 62
7
 10
93.196396
 20
-99.233574
 30
0.2
 11
93.649986
 21
-99.233574
 31
0.2
  0
LINE
  8
PLAN_1
 62
7
 10
93.649986
 20
-99.233574
 30
0.2
 11
94.103577
 21
-99.233574
 31
0.2
  0
LINE
  8
PLAN_1
 62
7
 10
94.103577
 20
-99.233574
 30
0.2
 11
94.196404
 21
-99.233574
 31
0.2
  0
LINE
  8
PLAN_1
 62
7
 10
94.196404
 20
-99.233574
 30
0.2
 11
94.196404
 21
-99.553574
 31
0.2
  0
LINE
  8
PLAN_1
 62
7
 10
94.196404
 20
-99.553574
 30
0.2
 11
94.803581
 21
-99.553574
 31
0.2
  0
LINE
  8
PLAN_1
 62
7
 10
94.803581
 20
-99.553574
 30
0.2
 11
94.803581
 21
-98.446396
 31
0.2
  0
LINE
  8
PLAN_1
 62
7
 10
94.803581
 20
-98.446396
 30
0.2
 11
94.65358
 21
-98.446396
 31
0.2
  0
LINE
  8
PLAN_1
 62
7
 10
94.65358
 20
-98.446396
 30
0.2
 11
94.65358
 21
-98.063614
 31
0.2
  0
LINE
  8
PLAN_1
 62
7
 10
94.65358
 20
-98.063614
 30
0.2
 11
95.063614
 21
-97.65358
 31
0.2
  0
LINE
  8
PLAN_1
 62
7
 10
95.063614
 20
-97.65358
 30
0.2
 11
98.436363
 21
-97.65358
 31
0.2
  0
LINE
  8
PLAN_1
 62
7
 10
98.436363
 20
-97.65358
 30
0.2
 11
98.846397
 21
-98.063614
 31
0.2
  0
LINE
  8
PLAN_1
 62
7
 10
98.846397
 20
-98.063614
 30
0.2
 11
98.846397
 21
-98.446396
 31
0.2
  0
LINE
  8
PLAN_1
 62
7
 10
98.846397
 20
-98.446396
 30
0.2
 11
98.696396
 21
-98.446396
 31
0.2
  0
LINE
  8
PLAN_1
 62
7
 10
98.696396
 20
-98.446396
 30
0.2
 11
98.696396
 21
-98.626396
 31
0.2
  0
LINE
  8
PLAN_1
 62
7
 10
98.696396
 20
-98.626396
 30
0.2
 11
98.603577
 21
-98.626396
 31
0.2
  0
LINE
  8
PLAN_1
 62
7
 10
98.603577
 20
-98.626396
 30
0.2
 11
98.149986
 21
-98.626396
 31
0.2
  0
LINE
  8
PLAN_1
 62
7
 10
98.149986
 20
-98.626396
 30
0.2
 11
97.696396
 21
-98.626396
 31
0.2
  0
LINE
  8
PLAN_1
 62
7
 10
97.696396
 20
-98.626396
 30
0.2
 11
97.696396
 21
-99.233574
 31
0.2
  0
LINE
  8
PLAN_1
 62
7
 10
97.696396
 20
-99.233574
 30
0.2
 11
98.149986
 21
-99.233574
 31
0.2
  0
LINE
  8
PLAN_1
 62
7
 10
98.149986
 20
-99.233574
 30
0.2
 11
98.603577
 21
-99.233574
 31
0.2
  0
LINE
  8
PLAN_1
 62
7
 10
98.603577
 20
-99.233574
 30
0.2
 11
98.696396
 21
-99.233574
 31
0.2
  0
LINE
  8
PLAN_1
 62
7
 10
98.696396
 20
-99.233574
 30
0.2
 11
98.696396
 21
-99.553574
 31
0.2
  0
LINE
  8
PLAN_1
 62
7
 10
98.696396
 20
-99.553574
 30
0.2
 11
99.303574
 21
-99.553574
 31
0.2
  0
LINE
  8
PLAN_1
 62
7
 10
99.303574
 20
-99.553574
 30
0.2
 11
99.303574
 21
-98.446396
 31
0.2
  0
LINE
  8
PLAN_1
 62
7
 10
99.303574
 20
-98.446396
 30
0.2
 11
99.153572
 21
-98.446396
 31
0.2
  0
LINE
  8
PLAN_1
 62
7
 10
99.153572
 20
-98.446396
 30
0.2
 11
99.153572
 21
-97.999992
 31
0.2
  0
LINE
  8
PLAN_1
 62
7
 10
99.153572
 20
-97.999992
 30
0.2
 11
99.15062
 21
-97.970032
 31
0.2
  0
LINE
  8
PLAN_1
 62
7
 10
99.15062
 20
-97.970032
 30
0.2
 11
99.141884
 21
-97.941216
 31
0.2
  0
LINE
  8
PLAN_1
 62
7
 10
99.141884
 20
-97.941216
 30
0.2
 11
99.127693
 21
-97.914665
 31
0.2
  0
LINE
  8
PLAN_1
 62
7
 10
99.127693
 20
-97.914665
 30
0.2
 11
99.108589
 21
-97.891388
 31
0.2
  0
LINE
  8
PLAN_1
 62
7
 10
99.108589
 20
-97.891388
 30
0.2
 11
98.608589
 21
-97.391388
 31
0.2
  0
LINE
  8
PLAN_1
 62
7
 10
98.608589
 20
-97.391388
 30
0.2
 11
98.585312
 21
-97.372292
 31
0.2
  0
LINE
  8
PLAN_1
 62
7
 10
98.585312
 20
-97.372292
 30
0.2
 11
98.558762
 21
-97.358093
 31
0.2
  0
LINE
  8
PLAN_1
 62
7
 10
98.558762
 20
-97.358093
 30
0.2
 11
98.529945
 21
-97.349358
 31
0.2
  0
LINE
  8
PLAN_1
 62
7
 10
98.529945
 20
-97.349358
 30
0.2
 11
98.499985
 21
-97.346405
 31
0.2
  0
LINE
  8
PLAN_1
 62
7
 10
98.499985
 20
-97.346405
 30
0.2
 11
94.999992
 21
-97.346405
 31
0.2
  0
LINE
  8
PLAN_1
 62
7
 10
94.999992
 20
-97.346405
 30
0.2
 11
94.970032
 21
-97.349358
 31
0.2
  0
LINE
  8
PLAN_1
 62
7
 10
94.970032
 20
-97.349358
 30
0.2
 11
94.941216
 21
-97.358093
 31
0.2
  0
LINE
  8
PLAN_1
 62
7
 10
94.941216
 20
-97.358093
 30
0.2
 11
94.914665
 21
-97.372292
 31
0.2
  0
LINE
  8
PLAN_1
 62
7
 10
94.914665
 20
-97.372292
 30
0.2
 11
94.891388
 21
-97.391388
 31
0.2
  0
LINE
  8
PLAN_1
 62
7
 10
94.891388
 20
-97.391388
 30
0.2
 11
94.391388
 21
-97.891388
 31
0.2
  0
LINE
  8
PLAN_1
 62
7
 10
94.391388
 20
-97.891388
 30
0.2
 11
94.372284
 21
-97.914665
 31
0.2
  0
LINE
  8
PLAN_1
 62
7
 10
94.372284
 20
-97.914665
 30
0.2
 11
94.358093
 21
-97.941216
 31
0.2
  0
LINE
  8
PLAN_1
 62
7
 10
94.358093
 20
-97.941216
 30
0.2
 11
94.34935
 21
-97.970032
 31
0.2
  0
LINE
  8
PLAN_1
 62
7
 10
94.34935
 20
-97.970032
 30
0.2
 11
94.346405
 21
-97.999992
 31
0.2
  0
LINE
  8
PLAN_1
 62
7
 10
94.346405
 20
-97.999992
 30
0.2
 11
94.346405
 21
-98.446396
 31
0.2
  0
LINE
  8
PLAN_1
 62
7
 10
94.346405
 20
-98.446396
 30
0.2
 11
94.196404
 21
-98.446396
 31
0.2
  0
LINE
  8
PLAN_1
 62
7
 10
94.196404
 20
-98.446396
 30
0.2
 11
94.196404
 21
-98.626396
 31
0.2
  0
LINE
  8
PLAN_1
 62
7
 10
94.196404
 20
-98.626396
 30
0.2
 11
94.103577
 21
-98.626396
 31
0.2
  0
LINE
  8
PLAN_1
 62
7
 10
93.649986
 20
-99.626396
 30
0.2
 11
93.196396
 21
-99.626396
 31
0.2
  0
LINE
  8
PLAN_1
 62
7
 10
93.196396
 20
-99.626396
 30
0.2
 11
91.414314
 21
-99.626396
 31
0.2
  0
LINE
  8
PLAN_1
 62
7
 10
91.414314
 20
-99.626396
 30
0.2
 11
91.143951
 21
-99.356026
 31
0.2
  0
LINE
  8
PLAN_1
 62
7
 10
91.143951
 20
-99.356026
 30
0.2
 11
91.113106
 21
-99.330711
 31
0.2
  0
LINE
  8
PLAN_1
 62
7
 10
91.113106
 20
-99.330711
 30
0.2
 11
91.077904
 21
-99.311897
 31
0.2
  0
LINE
  8
PLAN_1
 62
7
 10
91.077904
 20
-99.311897
 30
0.2
 11
91.039711
 21
-99.300308
 31
0.2
  0
LINE
  8
PLAN_1
 62
7
 10
91.039711
 20
-99.300308
 30
0.2
 11
90.999992
 21
-99.296394
 31
0.2
  0
LINE
  8
PLAN_1
 62
7
 10
90.999992
 20
-99.296394
 30
0.2
 11
90.960274
 21
-99.300308
 31
0.2
  0
LINE
  8
PLAN_1
 62
7
 10
90.960274
 20
-99.300308
 30
0.2
 11
90.922081
 21
-99.31189
 31
0.2
  0
LINE
  8
PLAN_1
 62
7
 10
90.922081
 20
-99.31189
 30
0.2
 11
90.886887
 21
-99.330704
 31
0.2
  0
LINE
  8
PLAN_1
 62
7
 10
90.886887
 20
-99.330704
 30
0.2
 11
90.856033
 21
-99.356026
 31
0.2
  0
LINE
  8
PLAN_1
 62
7
 10
90.856033
 20
-99.356026
 30
0.2
 11
90.830711
 21
-99.386871
 31
0.2
  0
LINE
  8
PLAN_1
 62
7
 10
90.830711
 20
-99.386871
 30
0.2
 11
90.811897
 21
-99.422073
 31
0.2
  0
LINE
  8
PLAN_1
 62
7
 10
90.811897
 20
-99.422073
 30
0.2
 11
90.800316
 21
-99.460266
 31
0.2
  0
LINE
  8
PLAN_1
 62
7
 10
90.800316
 20
-99.460266
 30
0.2
 11
90.796402
 21
-99.499985
 31
0.2
  0
LINE
  8
PLAN_1
 62
7
 10
90.796402
 20
-99.499985
 30
0.2
 11
90.800316
 21
-99.539703
 31
0.2
  0
LINE
  8
PLAN_1
 62
7
 10
90.800316
 20
-99.539703
 30
0.2
 11
90.811897
 21
-99.577896
 31
0.2
  0
LINE
  8
PLAN_1
 62
7
 10
90.811897
 20
-99.577896
 30
0.2
 11
90.830711
 21
-99.613091
 31
0.2
  0
LINE
  8
PLAN_1
 62
7
 10
90.830711
 20
-99.613091
 30
0.2
 11
90.856033
 21
-99.643944
 31
0.2
  0
LINE
  8
PLAN_1
 62
7
 10
90.856033
 20
-99.643944
 30
0.2
 11
91.186028
 21
-99.973946
 31
0.2
  0
LINE
  8
PLAN_1
 62
7
 10
91.186028
 20
-99.973946
 30
0.2
 11
91.216881
 21
-99.999268
 31
0.2
  0
LINE
  8
PLAN_1
 62
7
 10
91.216881
 20
-99.999268
 30
0.2
 11
91.252075
 21
-100.018082
 31
0.2
  0
LINE
  8
PLAN_1
 62
7
 10
91.252075
 20
-100.018082
 30
0.2
 11
91.290268
 21
-100.029663
 31
0.2
  0
LINE
  8
PLAN_1
 62
7
 10
91.290268
 20
-100.029663
 30
0.2
 11
91.329987
 21
-100.033577
 31
0.2
  0
LINE
  8
PLAN_1
 62
7
 10
91.329987
 20
-100.033577
 30
0.2
 11
93.196396
 21
-100.033577
 31
0.2
  0
LINE
  8
PLAN_1
 62
7
 10
93.196396
 20
-100.033577
 30
0.2
 11
93.649986
 21
-100.033577
 31
0.2
  0
LINE
  8
PLAN_1
 62
7
 10
93.649986
 20
-100.033577
 30
0.2
 11
94.103577
 21
-100.033577
 31
0.2
  0
LINE
  8
PLAN_1
 62
7
 10
94.103577
 20
-100.033577
 30
0.2
 11
94.103577
 21
-99.626396
 31
0.2
  0
LINE
  8
PLAN_1
 62
7
 10
94.103577
 20
-99.626396
 30
0.2
 11
93.649986
 21
-99.626396
 31
0.2
  0
LINE
  8
PLAN_1
 62
7
 10
93.649986
 20
-100.426399
 30
0.2
 11
93.196396
 21
-100.426399
 31
0.2
  0
LINE
  8
PLAN_1
 62
7
 10
93.196396
 20
-100.426399
 30
0.2
 11
91.355743
 21
-100.426399
 31
0.2
  0
LINE
  8
PLAN_1
 62
7
 10
91.355743
 20
-100.426399
 30
0.2
 11
91.214668
 21
-100.285316
 31
0.2
  0
LINE
  8
PLAN_1
 62
7
 10
91.214668
 20
-100.285316
 30
0.2
 11
91.168663
 21
-100.247566
 31
0.2
  0
LINE
  8
PLAN_1
 62
7
 10
91.168663
 20
-100.247566
 30
0.2
 11
91.116173
 21
-100.219505
 31
0.2
  0
LINE
  8
PLAN_1
 62
7
 10
91.116173
 20
-100.219505
 30
0.2
 11
91.059227
 21
-100.202232
 31
0.2
  0
LINE
  8
PLAN_1
 62
7
 10
91.059227
 20
-100.202232
 30
0.2
 11
91.0
 21
-100.196396
 31
0.2
  0
LINE
  8
PLAN_1
 62
7
 10
91.0
 20
-100.196396
 30
0.2
 11
90.940773
 21
-100.202225
 31
0.2
  0
LINE
  8
PLAN_1
 62
7
 10
90.940773
 20
-100.202225
 30
0.2
 11
90.88382
 21
-100.219505
 31
0.2
  0
LINE
  8
PLAN_1
 62
7
 10
90.88382
 20
-100.219505
 30
0.2
 11
90.831329
 21
-100.247559
 31
0.2
  0
LINE
  8
PLAN_1
 62
7
 10
90.831329
 20
-100.247559
 30
0.2
 11
90.785324
 21
-100.285309
 31
0.2
  0
LINE
  8
PLAN_1
 62
7
 10
90.785324
 20
-100.285309
 30
0.2
 11
90.747566
 21
-100.331314
 31
0.2
  0
LINE
  8
PLAN_1
 62
7
 10
90.747566
 20
-100.331314
 30
0.2
 11
90.719513
 21
-100.383804
 31
0.2
  0
LINE
  8
PLAN_1
 62
7
 10
90.719513
 20
-100.383804
 30
0.2
 11
90.70224
 21
-100.44075
 31
0.2
  0
LINE
  8
PLAN_1
 62
7
 10
90.70224
 20
-100.44075
 30
0.2
 11
90.696404
 21
-100.499977
 31
0.2
  0
LINE
  8
PLAN_1
 62
7
 10
90.696404
 20
-100.499977
 30
0.2
 11
90.702232
 21
-100.559204
 31
0.2
  0
LINE
  8
PLAN_1
 62
7
 10
90.702232
 20
-100.559204
 30
0.2
 11
90.719513
 21
-100.616158
 31
0.2
  0
LINE
  8
PLAN_1
 62
7
 10
90.719513
 20
-100.616158
 30
0.2
 11
90.747566
 21
-100.668648
 31
0.2
  0
LINE
  8
PLAN_1
 62
7
 10
90.747566
 20
-100.668648
 30
0.2
 11
90.785316
 21
-100.714653
 31
0.2
  0
LINE
  8
PLAN_1
 62
7
 10
90.785316
 20
-100.714653
 30
0.2
 11
91.015312
 21
-100.944656
 31
0.2
  0
LINE
  8
PLAN_1
 62
7
 10
91.015312
 20
-100.944656
 30
0.2
 11
91.061325
 21
-100.982414
 31
0.2
  0
LINE
  8
PLAN_1
 62
7
 10
91.061325
 20
-100.982414
 30
0.2
 11
91.113808
 21
-101.010468
 31
0.2
  0
LINE
  8
PLAN_1
 62
7
 10
91.113808
 20
-101.010468
 30
0.2
 11
91.170761
 21
-101.027748
 31
0.2
  0
LINE
  8
PLAN_1
 62
7
 10
91.170761
 20
-101.027748
 30
0.2
 11
91.229988
 21
-101.033577
 31
0.2
  0
LINE
  8
PLAN_1
 62
7
 10
91.229988
 20
-101.033577
 30
0.2
 11
93.196396
 21
-101.033577
 31
0.2
  0
LINE
  8
PLAN_1
 62
7
 10
93.196396
 20
-101.033577
 30
0.2
 11
93.649986
 21
-101.033577
 31
0.2
  0
LINE
  8
PLAN_1
 62
7
 10
93.649986
 20
-101.033577
 30
0.2
 11
94.103577
 21
-101.033577
 31
0.2
  0
LINE
  8
PLAN_1
 62
7
 10
94.103577
 20
-101.033577
 30
0.2
 11
94.103577
 21
-100.426399
 31
0.2
  0
LINE
  8
PLAN_1
 62
7
 10
94.103577
 20
-100.426399
 30
0.2
 11
93.649986
 21
-100.426399
 31
0.2
  0
LINE
  8
PLAN_1
 62
7
 10
94.196404
 20
-100.419991
 30
0.2
 11
94.196404
 21
-101.213585
 31
0.2
  0
LINE
  8
PLAN_1
 62
7
 10
94.196404
 20
-101.213585
 30
0.2
 11
94.196404
 21
-101.999985
 31
0.2
  0
LINE
  8
PLAN_1
 62
7
 10
94.196404
 20
-101.999985
 30
0.2
 11
94.202232
 21
-102.059212
 31
0.2
  0
LINE
  8
PLAN_1
 62
7
 10
94.202232
 20
-102.059212
 30
0.2
 11
94.219513
 21
-102.116165
 31
0.2
  0
LINE
  8
PLAN_1
 62
7
 10
94.219513
 20
-102.116165
 30
0.2
 11
94.247566
 21
-102.168648
 31
0.2
  0
LINE
  8
PLAN_1
 62
7
 10
94.247566
 20
-102.168648
 30
0.2
 11
94.285324
 21
-102.214653
 31
0.2
  0
LINE
  8
PLAN_1
 62
7
 10
94.285324
 20
-102.214653
 30
0.2
 11
94.331329
 21
-102.252411
 31
0.2
  0
LINE
  8
PLAN_1
 62
7
 10
94.331329
 20
-102.252411
 30
0.2
 11
94.383812
 21
-102.280464
 31
0.2
  0
LINE
  8
PLAN_1
 62
7
 10
94.383812
 20
-102.280464
 30
0.2
 11
94.440765
 21
-102.297745
 31
0.2
  0
LINE
  8
PLAN_1
 62
7
 10
94.440765
 20
-102.297745
 30
0.2
 11
94.499992
 21
-102.303574
 31
0.2
  0
LINE
  8
PLAN_1
 62
7
 10
94.499992
 20
-102.303574
 30
0.2
 11
98.999985
 21
-102.303574
 31
0.2
  0
LINE
  8
PLAN_1
 62
7
 10
98.999985
 20
-102.303574
 30
0.2
 11
99.059212
 21
-102.297745
 31
0.2
  0
LINE
  8
PLAN_1
 62
7
 10
99.059212
 20
-102.297745
 30
0.2
 11
99.116165
 21
-102.280464
 31
0.2
  0
LINE
  8
PLAN_1
 62
7
 10
99.116165
 20
-102.280464
 30
0.2
 11
99.168648
 21
-102.252411
 31
0.2
  0
LINE
  8
PLAN_1
 62
7
 10
99.168648
 20
-102.252411
 30
0.2
 11
99.214653
 21
-102.214653
 31
0.2
  0
LINE
  8
PLAN_1
 62
7
 10
99.214653
 20
-102.214653
 30
0.2
 11
99.252411
 21
-102.168648
 31
0.2
  0
LINE
  8
PLAN_1
 62
7
 10
99.252411
 20
-102.168648
 30
0.2
 11
99.280464
 21
-102.116165
 31
0.2
  0
LINE
  8
PLAN_1
 62
7
 10
99.280464
 20
-102.116165
 30
0.2
 11
99.297745
 21
-102.059212
 31
0.2
  0
LINE
  8
PLAN_1
 62
7
 10
99.297745
 20
-102.059212
 30
0.2
 11
99.303574
 21
-101.999985
 31
0.2
  0
LINE
  8
PLAN_1
 62
7
 10
99.303574
 20
-101.999985
 30
0.2
 11
99.303574
 21
-101.213585
 31
0.2
  0
LINE
  8
PLAN_1
 62
7
 10
99.303574
 20
-101.213585
 30
0.2
 11
99.303574
 21
-100.419991
 31
0.2
  0
LINE
  8
PLAN_1
 62
7
 10
99.303574
 20
-100.419991
 30
0.2
 11
99.303574
 21
-99.626404
 31
0.2
  0
LINE
  8
PLAN_1
 62
7
 10
99.303574
 20
-99.626404
 30
0.2
 11
98.696396
 21
-99.626404
 31
0.2
  0
LINE
  8
PLAN_1
 62
7
 10
98.696396
 20
-99.626404
 30
0.2
 11
98.696396
 21
-100.419991
 31
0.2
  0
LINE
  8
PLAN_1
 62
7
 10
98.696396
 20
-100.419991
 30
0.2
 11
98.696396
 21
-101.213585
 31
0.2
  0
LINE
  8
PLAN_1
 62
7
 10
98.696396
 20
-101.213585
 30
0.2
 11
98.696396
 21
-101.696396
 31
0.2
  0
LINE
  8
PLAN_1
 62
7
 10
98.696396
 20
-101.696396
 30
0.2
 11
94.803581
 21
-101.696396
 31
0.2
  0
LINE
  8
PLAN_1
 62
7
 10
94.803581
 20
-101.696396
 30
0.2
 11
94.803581
 21
-101.213585
 31
0.2
  0
LINE
  8
PLAN_1
 62
7
 10
94.803581
 20
-101.213585
 30
0.2
 11
94.803581
 21
-100.419991
 31
0.2
  0
LINE
  8
PLAN_1
 62
7
 10
94.803581
 20
-100.419991
 30
0.2
 11
94.803581
 21
-99.626404
 31
0.2
  0
LINE
  8
PLAN_1
 62
7
 10
94.803581
 20
-99.626404
 30
0.2
 11
94.196404
 21
-99.626404
 31
0.2
  0
LINE
  8
PLAN_1
 62
7
 10
94.196404
 20
-99.626404
 30
0.2
 11
94.196404
 21
-100.419991
 31
0.2
  0
LINE
  8
PLAN_1
 62
7
 10
95.803581
 20
-100.426399
 30
0.2
 11
95.349991
 21
-100.426399
 31
0.2
  0
LINE
  8
PLAN_1
 62
7
 10
95.349991
 20
-100.426399
 30
0.2
 11
94.8964
 21
-100.426399
 31
0.2
  0
LINE
  8
PLAN_1
 62
7
 10
94.8964
 20
-100.426399
 30
0.2
 11
94.8964
 21
-101.033577
 31
0.2
  0
LINE
  8
PLAN_1
 62
7
 10
94.8964
 20
-101.033577
 30
0.2
 11
95.349991
 21
-101.033577
 31
0.2
  0
LINE
  8
PLAN_1
 62
7
 10
95.349991
 20
-101.033577
 30
0.2
 11
95.803581
 21
-101.033577
 31
0.2
  0
LINE
  8
PLAN_1
 62
7
 10
95.803581
 20
-101.033577
 30
0.2
 11
97.696396
 21
-101.033577
 31
0.2
  0
LINE
  8
PLAN_1
 62
7
 10
97.696396
 20
-101.033577
 30
0.2
 11
98.149986
 21
-101.033577
 31
0.2
  0
LINE
  8
PLAN_1
 62
7
 10
98.149986
 20
-101.033577
 30
0.2
 11
98.603577
 21
-101.033577
 31
0.2
  0
LINE
  8
PLAN_1
 62
7
 10
98.603577
 20
-101.033577
 30
0.2
 11
98.603577
 21
-100.426399
 31
0.2
  0
LINE
  8
PLAN_1
 62
7
 10
98.603577
 20
-100.426399
 30
0.2
 11
98.149986
 21
-100.426399
 31
0.2
  0
LINE
  8
PLAN_1
 62
7
 10
98.149986
 20
-100.426399
 30
0.2
 11
97.696396
 21
-100.426399
 31
0.2
  0
LINE
  8
PLAN_1
 62
7
 10
97.696396
 20
-100.426399
 30
0.2
 11
95.803581
 21
-100.426399
 31
0.2
  0
LINE
  8
PLAN_1
 62
7
 10
95.803581
 20
-99.626396
 30
0.2
 11
95.349991
 21
-99.626396
 31
0.2
  0
LINE
  8
PLAN_1
 62
7
 10
95.349991
 20
-99.626396
 30
0.2
 11
94.8964
 21
-99.626396
 31
0.2
  0
LINE
  8
PLAN_1
 62
7
 10
94.8964
 20
-99.626396
 30
0.2
 11
94.8964
 21
-100.033577
 31
0.2
  0
LINE
  8
PLAN_1
 62
7
 10
94.8964
 20
-100.033577
 30
0.2
 11
95.349991
 21
-100.033577
 31
0.2
  0
LINE
  8
PLAN_1
 62
7
 10
95.349991
 20
-100.033577
 30
0.2
 11
95.803581
 21
-100.033577
 31
0.2
  0
LINE
  8
PLAN_1
 62
7
 10
95.803581
 20
-100.033577
 30
0.2
 11
97.696396
 21
-100.033577
 31
0.2
  0
LINE
  8
PLAN_1
 62
7
 10
97.696396
 20
-100.033577
 30
0.2
 11
98.149986
 21
-100.033577
 31
0.2
  0
LINE
  8
PLAN_1
 62
7
 10
98.149986
 20
-100.033577
 30
0.2
 11
98.603577
 21
-100.033577
 31
0.2
  0
LINE
  8
PLAN_1
 62
7
 10
98.603577
 20
-100.033577
 30
0.2
 11
98.603577
 21
-99.626396
 31
0.2
  0
LINE
  8
PLAN_1
 62
7
 10
98.603577
 20
-99.626396
 30
0.2
 11
98.149986
 21
-99.626396
 31
0.2
  0
LINE
  8
PLAN_1
 62
7
 10
98.149986
 20
-99.626396
 30
0.2
 11
97.696396
 21
-99.626396
 31
0.2
  0
LINE
  8
PLAN_1
 62
7
 10
97.696396
 20
-99.626396
 30
0.2
 11
95.803581
 21
-99.626396
 31
0.2
  0
LINE
  8
PLAN_1
 62
7
 10
95.803581
 20
-98.626396
 30
0.2
 11
94.8964
 21
-98.626396
 31
0.2
  0
LINE
  8
PLAN_1
 62
7
 10
94.8964
 20
-98.626396
 30
0.2
 11
94.8964
 21
-99.233574
 31
0.2
  0
LINE
  8
PLAN_1
 62
7
 10
94.8964
 20
-99.233574
 30
0.2
 11
95.803581
 21
-99.233574
 31
0.2
  0
LINE
  8
PLAN_1
 62
7
 10
95.803581
 20
-99.233574
 30
0.2
 11
95.803581
 21
-98.626396
 31
0.2
  0
LINE
  8
PLAN_1
 62
7
 10
100.303581
 20
-98.626396
 30
0.2
 11
99.3964
 21
-98.626396
 31
0.2
  0
LINE
  8
PLAN_1
 62
7
 10
99.3964
 20
-98.626396
 30
0.2
 11
99.3964
 21
-99.233574
 31
0.2
  0
LINE
  8
PLAN_1
 62
7
 10
99.3964
 20
-99.233574
 30
0.2
 11
100.303581
 21
-99.233574
 31
0.2
  0
LINE
  8
PLAN_1
 62
7
 10
100.303581
 20
-99.233574
 30
0.2
 11
100.303581
 21
-98.626396
 31
0.2
  0
LINE
  8
PLAN_1
 62
7
 10
100.303581
 20
-99.626396
 30
0.2
 11
99.3964
 21
-99.626396
 31
0.2
  0
LINE
  8
PLAN_1
 62
7
 10
99.3964
 20
-99.626396
 30
0.2
 11
99.3964
 21
-100.033577
 31
0.2
  0
LINE
  8
PLAN_1
 62
7
 10
99.3964
 20
-100.033577
 30
0.2
 11
100.303581
 21
-100.033577
 31
0.2
  0
LINE
  8
PLAN_1
 62
7
 10
100.303581
 20
-100.033577
 30
0.2
 11
100.303581
 21
-99.626396
 31
0.2
  0
LINE
  8
PLAN_1
 62
7
 10
100.303581
 20
-100.426399
 30
0.2
 11
99.3964
 21
-100.426399
 31
0.2
  0
LINE
  8
PLAN_1
 62
7
 10
99.3964
 20
-100.426399
 30
0.2
 11
99.3964
 21
-101.033577
 31
0.2
  0
LINE
  8
PLAN_1
 62
7
 10
99.3964
 20
-101.033577
 30
0.2
 11
100.303581
 21
-101.033577
 31
0.2
  0
LINE
  8
PLAN_1
 62
7
 10
100.303581
 20
-101.033577
 30
0.2
 11
100.303581
 21
-100.426399
 31
0.2
  0
ENDSEC
  0
EOF
